- 0 +

Skip to navigation

malaykord_image Download Malaykord Guitar Apps Right Now!
Chord List: 09 | A | B | C | D | E | F | G | H | I | J | K | L | M | N | O | P | Q | R | S | T | U | V | W | X | Y | Z | NEW
09 | A | B | C | D | E | F | G | H | I | J | K | L | M | N | O | P | Q | R | S | T | U | V | W | X | Y | Z | NEW | TOP

Scorpions - Rhythm Of Love Chord



Scorpions - Rhythm Of Love Chord

Home > > > Scorpions - Rhythm Of Love Chord

Report Chord

Intro: Gm Cm F Gm (2x)

Gm Cm F Gm Gm Cm F Gm
E|-------------------------------------------------------------------|
B|-------------------------------------------------------------------|
G|----------3------5s7-5--7-5-3---------3------5s7-5--5-3-10s12------|
D|----3-3s5---3s5-----------------3-3s5---3s5------------------------|
A|-------------------------------------------------------------------|
E|-------------------------------------------------------------------|

ou

Gm Cm7 F Gm Gm
e|---------|------------|------|---------------|------------|------------|
B|---------|------------|------|---------------|------------|------------|
G|---------|------------|------|---------------|------------|------------|
D|---------|--8---------|--12--|--10--12-P-10--|--8---------|--8---------|
A|--8--10--|-----8--10--|------|---------------|-----8--10--|-----8--10--|
E|---------|------------|------|---------------|------------|------------|

Cm7 F Gm
e|------|-------------------|-------------|
B|------|-------------------|-------------|
G|------|-------------------|--10--(12)---|
D|--12--|--10--12-P-10-P-8--|-------------|
A|------|-------------------|-------------|
E|------|-------------------|-------------|

Gm Cm
Let's spend the night together
F Gm
I know you want it too
Gm Cm
The magic of the moment
F Gm
Is what I've got for you

Bb F
The heartbeat of this night
Cm F
Is made to lose control
Bb F
And there is something in your eyes
Cm F
That's longing for some more

Gm Cm
Let us find together
F Gm
The beat we're looking for


Bb F
The rhythm of love
Cm F
Keeps me dancing on the road
Bb F
The rhythm of love
Cm F
Got the groove that hits the bone
Bb F
The rhythm of love
Cm F
Is the game I'm looking for
Bb F
The rhythm of love
Cm F
Is the heartbeat of my soul



Gm Cm F Gm Gm Cm F Gm
E|-------------------------------------------------------------------|
B|-------------------------------------------------------------------|
G|----------3------5s7-5--7-5-3---------3------5s7-5--5-3-10s12------|
D|----3-3s5---3s5-----------------3-3s5---3s5------------------------|
A|-------------------------------------------------------------------|
E|-------------------------------------------------------------------|

ou

Gm Cm7 F Gm Gm
e|---------|------------|------|---------------|------------|------------|
B|---------|------------|------|---------------|------------|------------|
G|---------|------------|------|---------------|------------|------------|
D|---------|--8---------|--12--|--10--12-P-10--|--8---------|--8---------|
A|--8--10--|-----8--10--|------|---------------|-----8--10--|-----8--10--|
E|---------|------------|------|---------------|------------|------------|

Cm7 F Gm
e|------|-------------------|-----|-------|
B|------|-------------------|-------------|
G|------|-------------------|--10--(12)---|
D|--12--|--10--12-P-10-P-8--|-------------|
A|------|-------------------|-------------|
E|------|-------------------|-----|-------|


Gm Cm
Let's reach the top together
F Gm
One night will never do
Gm Cm
An exploding shot of pleasure
F Gm
Is what I've got for you

A# F
Why don't you close your eyes
Cm F
And let your feeling grow
A# F
I make you feel the taste of life
Cm F
Until your love will flow

Gm Cm
Let us find together
F Gm
The beat we're longing for



Bb F
The rhythm of love
Cm F
Keeps me dancing on the road
Bb F
The rhythm of love
Cm F
Got the groove that hits the bone
Bb F
The rhythm of love
Cm F
Is the game I'm looking for
Bb F
The rhythm of love
Cm F
Is the heartbeat of my soul...



#Malaykord



Title: Scorpions - Rhythm Of Love Chord
Artist: Scorpions
Review:
Author:
Rate: 4 dari 5
Posted On:


✓ Jika ada sebarang masalah tentang chord lagu diatas sila buat aduan pada Form Report Chord yang disediakan.[REPORT CHORDS]



<
>


Tidak Dapat Apa Yang Anda Cari? Request Chord Disini!