- 0 +

Skip to navigation

malaykord_image Malaykord APP 2019 version! Download now!
Chord List: 09 | A | B | C | D | E | F | G | H | I | J | K | L | M | N | O | P | Q | R | S | T | U | V | W | X | Y | Z | NEW
09 | A | B | C | D | E | F | G | H | I | J | K | L | M | N | O | P | Q | R | S | T | U | V | W | X | Y | Z | NEW | TOP

Scorpions - Big City Nights Chord



Scorpions - Big City Nights Chord

Home > > > Scorpions - Big City Nights Chord

Report Chord



Intro I (Guitarra 1):
e|----------------------------------8-8-8-8-8-7-------|
B|----------------------------------8-8-8-8-8-8-------|
G|----------------------------------7-7-7-7-7-7-------|
D|---2-3-2-0--10-9-7-5--------------------------------|
A|---0--------8--7-5-3--5-5-7-5-----------------------|
E|----------------------3-3-3-3-----------------------|

Intro II (Guitarra 2):
e|----------------------------------------------------|
B|----------------------------------------------------|
G|-------------------7b-------------------------------|
D|----------5-----7-------9b--7-9-7-------------------|
A|----3-7---------------------------9-7-----3-7-------|
E|--5-------------------------------------5-----------|

e|----------------------------------------------------|
B|-----------------------15b--13-15-13-----13-15b-----|
G|------------------7b-----------------14----------14-|
D|----------5----7------------------------------------|
A|----3-7---------------------------------------------|
E|--5-------------------------------------------------|

G#m E
When the daylight
B F#
Is falling down into the night
G#m E
And the sharks try
B Eb
To get a big piece out of life
G#m E B
It feels alright to go out to catch
F#
An outrageous thrill
G#m E B
But it's more like spinning wheels of fortune
Eb
Which never stand still

G#m E F#
Big City, Big City Nights,
Eb
You keep me burning
G#m E F#
Big City, Big City Nights

G#m E
When the sunlight
B F#
Is rising up in my eyes
G#m E
And the long night
B Eb
Has left me back at somebody's side
G#m E B
It feels alright for a long sweet minute
F#
Like hours before
G#m E B
But it's more like looking out for something,
Eb
I can't find anymore


G#m E F#
Big City, Big City Nights,
Eb
You keep me burning
G#m E F#
Big City, Big City Nights
G#m E F#
Big City, Big City Nights,
Eb
Always yearning
G#m E F#
Big City, Big City Nights


Pré ponte: F#6 F# F#6 F# F# F D#


F# C
There is no dream that you can't make true
Bb F# F
If you're looking for love
Eb F# C
But there's no girl who's burning the ice
C# G#m
Away from my heart, maybe tonight


SOLO: G#m E D# C# C F# (2x)


G#m E F#
Big City, Big City Nights,
Eb
You keep me burning
G#m E F#
Big City, Big City Nights
G#m E F#
Big City, Big City Nights,
Eb
Always yearning
G#m E F#
Big City, Big City Nights



#Malaykord



Title: Scorpions - Big City Nights Chord
Artist: Scorpions
Review:
Author:
Rate: 4 dari 5
Posted On:


✓ Jika ada sebarang masalah tentang chord lagu diatas sila buat aduan pada Form Report Chord yang disediakan.[REPORT CHORDS]



<
>


Tidak Dapat Apa Yang Anda Cari? Request Chord Disini!