Limp Bizkit - Behind Blue Eyes Chord

🌙

Em | G6 |Dsus2|Cadd9|Asus2| D | G | E |Esus4| Bm |
e|-----|---0-|--0--|--0--|--0--|--2--|--3--|-----|-----|--2--|
B|-----|---3-|--3--|--3--|--0--|--3--|--3--|--0--|--0--|--3--|
G|-----|-----|--2--|--0--|--2--|--2--|--0--|--1--|--2--|--4--|
D|---2-|---0-|-----|--2--|--2--|-----|--0--|--2--|--2--|--4--|
A|---2-|---2-|-----|--3--|-----|-----|--2--|--2--|--2--|--2--|
E|---0-|---3-|-----|-----|-----|-----|--3--|-----|-----|-----|


[Intro]

e|-----------0--------------------0----------------0-----------------------|
B|-------------0--------------------3---------3-------3---3---------3------|
G|--------0------0-------------0------0-----2---2-------2--------2----2----|
D|------2-------------------0-----------0-0-------------------0------------|
A|----2-------------2-----2------------------------------------------------|
E|--0------------------3---------------------------------------------------|

e|--0-------------------------0---------------------------0----------------|
B|-----3---3-----------3----------3------3---------3---------3-----3-------|
G|-------2-----------------------------------------------------------------|
D|-----------------2------2-----------2---------2-----2---------2----------|
A|--------------3----------------------------3-----------------------------|
E|-------------------------------------------------------------------------|

e|----------------0-----------------------------0---------------------|
B|---------0---------0------0-----------0-----------0-------0---------|
G|--------------------------------------------------------------------|
D|-----2------2----------2----------2------2------------2-------------|
A|--0----------------------------0------------------------------------|
E|--------------------------------------------------------------------|


[Verse]

Em G6
No one knows what it's like
Dsus2
To be the bad man
Cadd9
To be the sad man
Asus2
Behind blue eyes
Em G6
And no one knows what it's like
Dsus2
To be hated
Cadd9
To be fated
Asus2
To telling only lies


[Chorus]

Cadd9 D
But my dreams
G
They aren't as empty
Cadd9 D E Esus4 E Esus4 E
As my conscience seems to be
Bm Cadd9
I have hours, only lonely
D
My love is vengeance
Asus2
That's never free


[Verse]

Em G6
No one knows what it's like
Dsus2
To feel these feelin's
Cadd9
Like I do
Asus2
And I blame you
Em G6
No one bites back as hard
Dsus2
On their anger
Cadd9
None of my pain an' woe
Asus2
Can show through


[Chorus]

Cadd9 D
But my dreams
G
They aren't as empty
Cadd9 D E Esus4 E Esus4 E
As my conscience seems to be
Bm Cadd9
I have hours, only lonely
D
My love is vengeance
Asus2
That's never free


[Bridge]

Asus2 Em G6 Dsus2
Discover L.I.M.P Say it
Cadd9 Asus2
Discover L.I.M.P Say it
Asus2 Em G6 Dsus2
Discover L.I.M.P Say it
Cadd9 Asus2
Discover L.I.M.P Say it


[Verse]

Em G6
No one knows what it's like
Dsus2
To be mistreated
Cadd9
To be defeated
Asus2
Behind blue eyes
Em G6
And no one knows how to say
Dsus2
That they're sorry
Cadd9
An' don't worry
Asus2
I'm not telling lies


[Chorus]

Cadd9 D
But my dreams
G
They aren't as empty
Cadd9 D E Esus4 E Esus4 E
As my conscience seems to be
Bm Cadd9
I have hours, only lonely
D
My love is vengeance
Asus2
That's never free


[Verse]

Em G6
No one knows what it's like
Dsus2
To be the bad man
Cadd9
To be the sad man
Asus2
Behind blue eyes



Play Tutorial Guitar


Senarai Chord Limp Bizkit


Siapa Limp Bizkit?

Cari Barang Berkenaan Limp Bizkit



Loading....

Chord Lain:

Chord Suggestion:
<
>

Youtube - 0 + Autoscroll 0 Transpose