- 0 +

Skip to navigation

malaykord_image Malaykord APP 2019 version! Download now!
Chord List: 09 | A | B | C | D | E | F | G | H | I | J | K | L | M | N | O | P | Q | R | S | T | U | V | W | X | Y | Z | NEW
09 | A | B | C | D | E | F | G | H | I | J | K | L | M | N | O | P | Q | R | S | T | U | V | W | X | Y | Z | NEW | TOP

Muse - Plug In Baby Chord



Muse - Plug In Baby Chord

Home > > > Muse - Plug In Baby Chord

Report Chord


Chords:

G 320003
D xx0232
F# 244322
Bm 224432


[Riff]

e|---------------------------2h3p-------------------------------------|
B|----------------3-----3-5-------5-3---------------5-----5-7^8^7-6-7-|
G|---3-4-6--3-4-6---4-6--------------6--4-6-7--4-6-7--6-7-------------|
D|--------------------------------------------------------------------|
A|--------------------------------------------------------------------|
E|--------------------------------------------------------------------|

e|-------------------------------------------------------------------|
B|---7--------7--9^10^9-7-6-7----------------------------------------|
G|----7-7---7-----------------7---7----------------------------------|
D|-------6-7--------------------7------------------------------------|
A|-------------------------------------------------------------------|
E|-------------------------------------------------------------------|


[Verse]

G D F#
I have exposed your lies baby
G
The underneath is no big surprise
D F#
Now it's time for changing
G
And cleansing everything
D
To forget your love

Bm (palm mute)


[Chorus]

G Bm
My plug in baby
G
Crucify my enemies
Bm
When I'm tired of giving
G Bm
My plug in baby
G
My underbroken virgin realities
Bm
Tired of living


[Riff]

e|---------------------------2h3p-------------------------------------|
B|----------------3-----3-5-------5-3---------------5-----5-7^8^7-6-7-|
G|---3-4-6--3-4-6---4-6--------------6--4-6-7--4-6-7--6-7-------------|
D|--------------------------------------------------------------------|
A|--------------------------------------------------------------------|
E|--------------------------------------------------------------------|

e|-------------------------------------------------------------------|
B|---7--------7--9^10^9-7-6-7----------------------------------------|
G|----7-7---7-----------------7---7----------------------------------|
D|-------6-7--------------------7------------------------------------|
A|-------------------------------------------------------------------|
E|-------------------------------------------------------------------|


[Verse] (same chords as 1st verse)

Don't confused
Baby you're gonna loose
Your own game
Change me
And replace the envying
To forget your love


[Chorus]

G Bm
My plug in baby
G
Crucify my enemies
Bm
When I'm tired of giving
G Bm
My plug in baby
G
My underbroken virgin realities
Bm
Tired of living




#Malaykord



Title: Muse - Plug In Baby Chord
Artist: Muse
Review:
Author:
Rate: 4 dari 5
Posted On:


✓ Jika ada sebarang masalah tentang chord lagu diatas sila buat aduan pada Form Report Chord yang disediakan.[REPORT CHORDS]



<
>


Tidak Dapat Apa Yang Anda Cari? Request Chord Disini!