- 0 +

Skip to navigation

malaykord_image Malaykord APP 2019 version! Download now!
Chord List: 09 | A | B | C | D | E | F | G | H | I | J | K | L | M | N | O | P | Q | R | S | T | U | V | W | X | Y | Z | NEW
09 | A | B | C | D | E | F | G | H | I | J | K | L | M | N | O | P | Q | R | S | T | U | V | W | X | Y | Z | NEW | TOP

Iron Maiden - Can I Play With Madness Chord



Iron Maiden - Can I Play With Madness Chord

Home > > > Iron Maiden - Can I Play With Madness Chord

Report Chord


Intro: D C G "Dsus4, D, Dsus4, D, Dsus2, D" x 2

D C
Give me the sense to wonder
G "Dsus4, D, Dsus4, D, Dsus2, D"
To wonder if I'm free
D C
Give me a sense of wonder
G "Dsus4, D, Dsus4, D, Dsus2, D"
To know I can believe
D C
Give me the strength to hold my head up
G "Dsus4, D, Dsus4, D, Dsus2, D"
Spit back in their face
D C
Don't need no key to unlock this door
G
Gonna break down the walls
D A D A D A
Break out of this bad place

(Chorus)

Bm G D A
Can I play with madness - the prophet stared at his crystal ball
Bm G D A
Can I play with madness - there's no vision there at all
Bm G D A
Can I play with madness - the prophet looked and he laughed at me
Bm G D A D A D A
Can I play with madness - he said you're blind, too blind to see

D C G "Dsus4, D, Dsus4, D, Dsus2, D"
(Ooooh, such a too blind to see)
D C G "Dsus4, D, Dsus4, D, Dsus2, D"

D C
I screamed aloud to the old man
G "Dsus4, D, Dsus4, D, Dsus2, D"
I said don't lie don't say you don't know
D C
I say you'll pay for this mischief
G "Dsus4, D, Dsus4, D, Dsus2, D"
Oh, in this world or the next
D C
Oh and then he fixed me with a freezing glance
G "Dsus4, D, Dsus4, D, Dsus2, D"
And the hellfires raged in his eyes
D
He said do you want to know the truth son
C
Lord, I'll tell you the truth
G D A D A D A
Your soul's gonna burn in the lake of fire

(Chorus)

(Solo)

(Chorus)

END

If you listen to the song at the chorus, theres some small change in the notes
after the lyrics go "stared in his crystal ball" and "no vision here at all"

Those small parts go:

e|---------------------------------------------------------------------------|
B|---------------------------------------------------------------------------|
G|----------6--7--6--4-------------------------------------------------------|
D|----------------------7--4-------------------------------------------------|
A|---------------------------------------------------------------------------|
E|---------------------------------------------------------------------------|


And

e|---------------------------------------------------------------------------|
B|---------------------------------------------------------------------------|
G|---------------------------------------------------------------------------|
D|---------------------------------------------------------------------------|
A|--------------------0--2--0------------------------------------------------|
E|-----------0--2--3---------------------------------------------------------|




#Malaykord



Title: Iron Maiden - Can I Play With Madness Chord
Artist: Iron Maiden
Review:
Author:
Rate: 4 dari 5
Posted On:


✓ Jika ada sebarang masalah tentang chord lagu diatas sila buat aduan pada Form Report Chord yang disediakan.[REPORT CHORDS]



<
>


Tidak Dapat Apa Yang Anda Cari? Request Chord Disini!