- 0 +

Skip to navigation

malaykord_imageJom bagi feedback untuk Malaykord T-Shirt Survey!

Chord List

:
09 | A | B | C | D | E | F | G | H | I | J | K | L | M | N | O | P | Q | R | S | T | U | V | W | X | Y | Z | NEW
09 | A | B | C | D | E | F | G | H | I | J | K | L | M | N | O | P | Q | R | S | T | U | V | W | X | Y | Z | NEW | TOP

Pearl Jam - I Am Mine Chord



Pearl Jam - I Am Mine Chord

Home > > > Pearl Jam - I Am Mine Chord

Report Chord


[INTRO] --> *

| x3 |
E|--0---0---0---0---0---0---0---0---0---0---0--|--0---0---0---0---0---0--|--0--|
B|--3---3/--6/--8/--6/--5---5/--6/--5/--1/--3--|--3---3/--6/--8/--6/--5--|--2--|
G|--2---2/--5/--7/--5/--4---4/--5/--4/--0/--2--|--2---2/--5/--7/--5/--4--|--2--|
D|--0---0---0---0---0---0---0---0---0---0---0--|--0---0---0---0---0---0--|--2--|
A|---------------------------------------------|-------------------------|--0--|
E|---------------------------------------------|-------------------------|-----|


[Verse]

D F C G
The selfish they're all standing in line
D F C G
Faithing and hoping to buy themselves time
D F C G
Me, I figure as each breath goes by
F G D/A (sus4)
I only own my mind

D F C G
The North is to South what the clock is to time
D F C G
There's East and there's West and there's everywhere life
D F C G
I know I was born and I know that I'll die
F G D F G D (sus4)
The in between is mine, I am mine


[Chorus]

G Am D
And the feeling, it gets left behind
G Am D
All the innocence lost at one time
G Am D
significant, behind the eyes
Cadd9
theres no need to hide...
*
we're safe tonight


[Instrumental]

E|--0---0---0---0---0---0---0---0---0---0---0--|--0---0---0---0---0---0--|--0--|
B|--3---3/--6/--8/--6/--5---5/--6/--5/--1/--3--|--3---3/--6/--8/--6/--5--|--2--|
G|--2---2/--5/--7/--5/--4---4/--5/--4/--0/--2--|--2---2/--5/--7/--5/--4--|--2--|
D|--0---0---0---0---0---0---0---0---0---0---0--|--0---0---0---0---0---0--|--2--|
A|---------------------------------------------|-------------------------|--0--|
E|---------------------------------------------|-------------------------|-----|


[Verse]

D F C G
The ocean is full cause everyone's crying
D F C G
the full moon is looking for friends at hightide
D F C G
the sorrow grows bigger when the sorrows denied
F G D F G D (sus4)
I only know my mind, I am mine


[Chorus]

G Am D
And the meaning, it gets left behind
G Am D
All the innocence lost at one time
G Am D
significant, behind the eyes
Cadd9
theres no need to hide...
*
we're safe tonight


[Instrumental]

| x3 | x3 |
e|--0---0---0---0---0---0---0--|--0---0---0---0---0---0-|
B|--3---3/--6/--8/--6/--3---1--|--3---3/--6/--8/--6/--3-|
G|--2---2/--5/--7/--5/--2---0--|--2---2/--5/--7/--5/--2-|
D|--0---0---0---0---0---0---2--|--0---0---0---0---0---0-|
A|--------------------------3--|------------------------|
E|-----------------------------|------------------------|


[Chorus]

G Am D
And the feelings that get left behind
G Am D
all the innocence broken with lies
G Am D
significance, between the lines
Cadd9
(we may need to hide)


G Am D
And the meanings that get left behind
G Am D
all the innocents lost at one time
G Am D
we're all diffrent behind the eyes
Cadd9
there's no need to hide


[SOLO] (chorus chords)

G Am D
G Am D
G Am D
Cadd9


#Malaykord



Title: Pearl Jam - I Am Mine Chord
Artist: Pearl Jam
Review:
Author:
Rate: 4 dari 5
Posted On:


✓ Jika ada sebarang masalah tentang chord lagu diatas sila buat aduan pada Form Report Chord yang disediakan.[REPORT CHORDS]





Play Youtube
Click to view Comment
<
>


Tidak Dapat Apa Yang Anda Cari? Request Chord Disini!