- 0 +

Skip to navigation

malaykord_image Malaykord APP 2019 version! Download now!
Chord List: 09 | A | B | C | D | E | F | G | H | I | J | K | L | M | N | O | P | Q | R | S | T | U | V | W | X | Y | Z | NEW
09 | A | B | C | D | E | F | G | H | I | J | K | L | M | N | O | P | Q | R | S | T | U | V | W | X | Y | Z | NEW | TOP

Nirvana - The Man Who Sold The World Chord



Nirvana - The Man Who Sold The World Chord

Home > > > Nirvana - The Man Who Sold The World Chord

Report Chord


[Intro]

D# G# C# F# A# D#


[Intro]

6x
e|---------------------|-----|
B|---------------------|-----|
G|--2-2-2-0--2h3p2-0---|--2--|
D|---------------------|-----|
A|---------------------|-----|
E|---------------------|-----|


[Verse 1]

A
We passed upon the stairs
Dm
We spoke of was and when
A
Although I wasn´t there
F
He said I was his friend
C
Which came as some surprise
A
I spoke into his eyes
Dm
I thought you died alone
C
A long, long time ago
F
Oh no, not me
Bb F
I never lost control
C F
You're face to face
Bb A
With the man who sold the world


[Verse 2]

A
I laughed and shook his hand
Dm
Made my way back home
A
I searched for form and land
F
For years and years, I roamed
C
I gazed a gazley stare
A
At all the millions here
Dm
I must have died alone
C
A long, long time ago
F
Who knows, not me
Bb F
I never lost control
C F
You're face, to face
Bb A
With the man who sold the world


[Interlude]

e|---------------------|
B|---------------------|
G|--2-2-2-0--2h3p2-0---|x4
D|---------------------|
A|---------------------|
E|---------------------|


[Bridge]

C F
Who knows, not me
Bb F
We never lost control
C F
You're face, to face
Bb A
With the man who sold the world


[Interlude]

e|---------------------|
B|---------------------|
G|--2-2-2-0--2h3p2-0---|x8
D|---------------------|
A|---------------------|
E|---------------------|


[Solo]

e|-------------------------------------------------|
B|-------------------------------------------------|
G|-/9-9-9-9-9-9--2-2-2-0--2h3p2-0--2-2-2-0-2h3p2-0-|
D|-------------------------------------------------|
A|-------------------------------------------------|
E|-------------------------------------------------|

e|---------------------------------------------------------------------------------|
B|---------------------------------------------------------------------------------|
G|-/10-10-10-10-10-10-9-7-7-7-7-7-7-/9-9-9-9-9-9--2-2-2-0-2h3p2-0-2-2-2-0--2h3p2-0-|
D|---------------------------------------------------------------------------------|
A|---------------------------------------------------------------------------------|
E|---------------------------------------------------------------------------------|

e|-------------------------------------------------------------------------------------|
B|-------------------------------------------------------------------------------------|
G|-/10-10-10-10-10-10-9-7-7-7-7-7-7-/9-9-9-9-9-9--2-2-2-0-2h3p2-0-2-2-2-0--2h3p2-0---2-|
D|-------------------------------------------------------------------------------------|
A|-------------------------------------------------------------------------------------|
E|-------------------------------------------------------------------------------------|




#Malaykord



Title: Nirvana - The Man Who Sold The World Chord
Artist: Nirvana
Review:
Author:
Rate: 4 dari 5
Posted On:


✓ Jika ada sebarang masalah tentang chord lagu diatas sila buat aduan pada Form Report Chord yang disediakan.[REPORT CHORDS]



<
>


Tidak Dapat Apa Yang Anda Cari? Request Chord Disini!