- 0 +

Skip to navigation

malaykord_image Malaykord APP 2019 version! Download now!
Chord List: 09 | A | B | C | D | E | F | G | H | I | J | K | L | M | N | O | P | Q | R | S | T | U | V | W | X | Y | Z | NEW
09 | A | B | C | D | E | F | G | H | I | J | K | L | M | N | O | P | Q | R | S | T | U | V | W | X | Y | Z | NEW | TOP

My Chemical Romance - Disenchanted Chord



My Chemical Romance - Disenchanted Chord

Home > > > My Chemical Romance - Disenchanted Chord

Report Chord



[Intro]

(play through verse as well if you'd like)

e|---------------------------------------------------------------------------|
B|----3-----3-----3----------------------------------------------------------|
G|-------2-----2-----2----0-------0-------0-------0----2----0----------------|x4
D|----0-----------------------4-------4-------4-----------------4------------|
A|---------------------------------------------------------------------------|
E|---------------------------------------------------------------------------|


[Verse]

D - Bm - G - A

Well I was there on the day
They sold the cause for the queen,
And when the lights all went out
We watched our lives on the screen.
I hate the ending myself,
But it started with an alright scene.

It was the roar of the crowd
That gave me heartache to sing.
It was a lie when they smiled
And said, "you won't feel a thing"
And as we ran from the cops
We laughed so hard it would sting

Yeah yeah, oh


[Pre-Chorus]

Bm - Em7 - A - D - Bm - G - A - Asus4

If I'm so wrong (so wrong, so wrong)
How can you listen all night long? (night long, night long)
Now will it matter after I'm gone?
Because you never learn a goddamned thing.


[Chorus]

D - Bm - Em7 - A

You're just a sad song with nothing to say
About a life long wait for a hospital stay
And if you think that I'm wrong,
This never meant nothing to ya


[Verse]

D - Bm - G - A

I spent my high school career
Spit on and shoved to agree
So I could watch all my heroes
Sell a car on tv
Bring out the old guillotine
We'll show 'em what we all mean.

Yeah yeah, oh


[Pre-Chorus]

Bm - Em7 - A - D - Bm - G - A - Asus4

If I'm so wrong (so wrong, so wrong)
How can you listen all night long? (night long, night long)
Now will it matter after I'm gone?
Because you never learn a goddamned thing.


[Verse]

D - Bm - G - A

You're just a sad song with nothing to say
About a life long wait for a hospital stay
And if you think that I'm wrong,
This never meant nothing to ya


[Bridge]

D5 - E5 - Bb - D5 - E5 - Bb - D - D - G - A

So go, go away, just go, run away.
But where did you run to? And where did you hide?
Go find another way, price you pay


[Intro lick]

w/ verse chords
D - Bm - G - A
e|---------------------------------------------------------------------------|
B|----3-----3-----3----------------------------------------------------------|
G|-------2-----2-----2----0-------0-------0-------0----2----0----------------|x4
D|----0-----------------------4-------4-------4-----------------4------------|
A|---------------------------------------------------------------------------|
E|---------------------------------------------------------------------------|
Woah, Woah, Woah, Woah, Woah, Woah


[Chorus]

D - Bm - Em7 - A

You're just a sad song with nothing to say
About a life long wait for a hospital stay
And if you think that I'm wrong,
This never meant nothing to ya

You're just a sad song with nothing to say
About a life long wait for a hospital stay
And if you think that I'm wrong,
This never meant nothing to ya


[Outro]

(play through verse as well if you'd like)

e|---------------------------------------------------------------------------|
B|----3-----3-----3----------------------------------------------------------|
G|-------2-----2-----2----0-------0-------0-------0----2----0----------------|x4
D|----0-----------------------4-------4-------4-----------------4------------|
A|---------------------------------------------------------------------------|
E|---------------------------------------------------------------------------|


#Malaykord



Title: My Chemical Romance - Disenchanted Chord
Artist: My Chemical Romance
Review:
Author:
Rate: 4 dari 5
Posted On:


✓ Jika ada sebarang masalah tentang chord lagu diatas sila buat aduan pada Form Report Chord yang disediakan.[REPORT CHORDS]



<
>


Tidak Dapat Apa Yang Anda Cari? Request Chord Disini!