- 0 +

Skip to navigation

malaykord_imageJom bagi feedback untuk Malaykord T-Shirt Survey!

Chord List

:
09 | A | B | C | D | E | F | G | H | I | J | K | L | M | N | O | P | Q | R | S | T | U | V | W | X | Y | Z | NEW
09 | A | B | C | D | E | F | G | H | I | J | K | L | M | N | O | P | Q | R | S | T | U | V | W | X | Y | Z | NEW | TOP

Metallica - Fade To Black Chord



Metallica - Fade To Black Chord

Home > > > Metallica - Fade To Black Chord

Report Chord


[Acoustic Intro]

e|----------------|---------------|---------------|---------------|
B|----------------|---------------|---------------|---------------|
G|-----0----------|----0----------|----0----------|----2----------|x5
D|---4---4---4---4|--4---4---4---4|--4---4---4---4|--2---2---2---2|
A|-2-------2---5--|0-------0---5--|2-------2---5--|4-------4---0--|
E|----------------|---------------|---------------|---------------|


[Pre-verse melody]

Am C G Em
Am C G Em
Am C G Em
Am C G Em


[1st verse]

Am C G Em
Life it seems will fade away, drifting further every day.
Am C G Em
Getting lost within myself, nothing matters, no one else.
Am C G Em
I have lost the will to live, simply nothing more to give.
Am C G
There is nothing more for me. Need the end to set__
E
__me free A C A D5 E5


[Instrumental]

C5 A C G#5 F#5 E
A C A D5 E5
C5 A C G#5 F#5 E


[Pre-verse melody]

Am C G Em
Am C G Em
Am C G Em
Am C G Em


[2d verse]

Am C G Em
Things not what they used to be, missing one inside of me.
Am C G Em
Deathly lost, this can't be real, cannot stand this hell I feel.
Am C G Em
Emptiness is filling me, to the point of agony.
Am C G
Growing darkness taking dawn, I was me, but now__
E A C

__he's gone____________



[Instrumental]


A D5 E5
C5 A C G#5 F#5 E
A C A D5 E5
C5 A C G#5 F#5 E


[Pre-verse melody]

D5 E5 D5 E5 G5 F#5 D5

e|--------------------------------------|
B|--------------------------------------|
G|-------------------------------------4|
D|--9--9--9--7--7--7--5--5--5--4--4--4--|
A|--------------------------------------|
E|--------------------------------------|

D5 E5 D5 E5 G5 F#5 D5

e|--------------------------------------|
B|--------------------------------------|
G|-------------------------------------4|
D|--9--9--9--7--7--7--5--5--5--4--4--4--|
A|--------------------------------------|
E|--------------------------------------|


[3rd verse]

D5 E5 D5 E5 G5 F#5 D5
No one but me can save myself but it's too late
D5 E5 D5 E5 G5 F#5 D5
Now I can't think, think why I should even try.


[Instrumental]

D5 E5 D5 E5 G5 F#5 D5
D5 E5 D5 E5 G5 F#5 D5


[Bridge]

D5 E5 D5 E5 G5 F#5 D5
Yesterday seems as though it never existed
D5 E5 D5 E5 G5 F#5 D5
Death greats me warm, now I will just say goodbye.


[Outro]

rythm mode: tttt-r tttt-t- t-r -t-t-

D5 - E5 D5 - E5 G5 - F#5 D5

e|--------------------------------------|
B|--------------------------------------|
G|-------------------------------------4|
D|--9--9--9--7--7--7--5--5--5--4--4--4--|
A|--------------------------------------|
E|--------------------------------------|

mode: tttt-r tttt-t- -r tttr-t- -t-t-

D5 - E5 D5 - E5 G5 - F#5 D5

e|--------------------------------------|
B|--------------------------------------|
G|-------------------------------------4|
D|--9--9--9--7--7--7--5--5--5--4--4--4--|
A|--------------------------------------|
E|--------------------------------------|



#Malaykord



Title: Metallica - Fade To Black Chord
Artist: Metallica
Review:
Author:
Rate: 4 dari 5
Posted On:


✓ Jika ada sebarang masalah tentang chord lagu diatas sila buat aduan pada Form Report Chord yang disediakan.[REPORT CHORDS]





Play Youtube
Click to view Comment
<
>


Tidak Dapat Apa Yang Anda Cari? Request Chord Disini!