- 0 +

Skip to navigation

malaykord_imageJom bagi feedback untuk Malaykord T-Shirt Survey!

Chord List

:
09 | A | B | C | D | E | F | G | H | I | J | K | L | M | N | O | P | Q | R | S | T | U | V | W | X | Y | Z | NEW
09 | A | B | C | D | E | F | G | H | I | J | K | L | M | N | O | P | Q | R | S | T | U | V | W | X | Y | Z | NEW | TOP

Ramli Sarip - Keliru Chord



Ramli Sarip - Keliru Chord

Home > > > Ramli Sarip - Keliru Chord

Report Chord

 Riff-1 4x

 Fill-1

     Bm
 Di tepian simpang ini
      F#m
 Sejenak aku terhenti
    G
 Terbayanglah bagaimana
     A          F#m
 Pengembaraanku bermula


     Bm
 Ku tinggalkan segala yang
       F#m
 Ku sayang dan ku cinta
     G
 Hanya untuk mencari
    A                F#m
 Satu identiti diri yang murni


 Fill-1


    Bm
 Setelah terjerat dalam
     F#m
 Dilema aku mengerti
    G
 Bagaimana sukarnya
     A           F#m
 Mengenai diri sendiri


   Bm
 Hanyutlah aku dalam arus
  F#m
 Hidup yang tak menentu
   G
 Maka timbul kesedaran
      A          F#m     G
 Yang aku selama ini keliru


          A        G
 Ku pandukan cahayaMu
           Bm
 DariMu Ilahi
G        A             G
 Aku bersujud memohon doa
             A               Bm
 Memohon rahmat, memohon restuMu
G           A
 Kau senangkanlah
       G                     Bm
 Mudahkanlah perjalanan hidupku
G        A              G
 Selama ini aku terpedaya
     Riff-1
 Dan keliru, keliru, keliru, keliru


 Guitar solo


    Bm
 Setelah terjerat dalam
     F#m
 Dilema aku mengerti
    G
 Bagaimana sukarnya
     A           F#m
 Mengenai diri sendiri


   Bm
 Hanyutlah aku dalam arus
  F#m
 Hidup yang tak menentu
   G
 Maka timbul kesedaran
      A           F#m
 Yang aku selama ini keliru


 Fill-2

 Keliru

 Riff-1 4x



*Riff-1
F#5 F#5 F#5 x x x F#5 F#5 F#5 x x x x x x x


*Fill-1
                 B5                      G5
E|------------|-----------------------|-------------------|--
B|------------|-------7----7----8--7--|-------------------|--
G|------7--6--|--4--------------------|--4----------6--4--|--
D|------------|-----------------------|-------------------|--
A|------------|-----------------------|-------------------|--
E|------------|-----------------------|-------------------|--

    A5                      F#5
E|-----------------------|--------------------|--
B|-------5----5----------|--------------------|--
G|-----------------7--6--|--3-----------7--6--|--
D|--7--------------------|--------------------|--
A|-----------------------|--------------------|--
E|-----------------------|--------------------|--

    B5                      G5
E|-----------------------|--------------------|--
B|-------7----7----8--7--|--------------------|--
G|--4--------------------|--4-----------6--4--|--
D|-----------------------|--------------------|--
A|-----------------------|--------------------|--
E|-----------------------|--------------------|--

    A5                      F#5                 B5
E|-----------------------|-------------------|-------------------|--
B|-------5----5----------|-------------------|-------------------|--
G|-----------------7--6--|--3----------7--6--|--4----------------|--
D|--7--------------------|-------------------|-------------------|--
A|-----------------------|-------------------|-------------------|--
E|-----------------------|-------------------|-------------------|-- 



#Malaykord



Title: Ramli Sarip - Keliru Chord
Artist: Ramli Sarip
Review:
Author:
Rate: 4 dari 5
Posted On:


✓ Jika ada sebarang masalah tentang chord lagu diatas sila buat aduan pada Form Report Chord yang disediakan.[REPORT CHORDS]





Play Youtube
Click to view Comment
<
>


Tidak Dapat Apa Yang Anda Cari? Request Chord Disini!