- 0 +

Skip to navigation

malaykord_image Download Malaykord Guitar Apps Right Now!
Chord List: 09 | A | B | C | D | E | F | G | H | I | J | K | L | M | N | O | P | Q | R | S | T | U | V | W | X | Y | Z | NEW
09 | A | B | C | D | E | F | G | H | I | J | K | L | M | N | O | P | Q | R | S | T | U | V | W | X | Y | Z | NEW | TOP

Kru - Apa Saja Chord



Kru - Apa Saja Chord

Home > > > Kru - Apa Saja Chord

Report Chord

A7 C#m

----3------------4------
----2------------5------
----2------------6------
----2------------6------
----0------------4------
------------------------

Intro :

A F#m
----------------0----------------0----------------2---------------4-
------2-0---2----------2-0---2----------2-0---2---------2-0---2-----
----2---------2------2---------2------2---------2-----2---------2---
------------------------------------4-------4-------4-------4-------
--0-------0--------0-------0----------------------------------------
--------------------------------------------------------------------

D A Dm E
-------0---1-0h2-0---------------0------1---0-1-0h1r0----------0h2-----
-----3-----------------2-0---2------------3----------------0-------0---
---2-----------------2---------2------2------------------1---1-------1-
-0-------0--------------------------0----------------------------------
-------------------0-------0---------------------------2---------------
-----------------------------------------------------------------------

(keep playing throughout verse)

A
Apa saja untukmu
F#m
Tak ku hiraukan waktu
D A
Katakan saja kan ku laksana
Dm E
Permaisuri kau bertakhta di jiwa

A
Apa saja untukmu
F#m
Ke dasar lautan biru
D A Dm
Bertaruh nyawa andai kau damba mutiara
E
Di hari lahir mu

Em D
Kita menuju gemilang asmara
Dm A
Tiada cinta setanding kita
C#m F#m
Kurela sehingga ke akhirnya
D E
Tunai segala mimpimu oh ratuku

D
Untuk mu kasih
E C#m F#m
Ku cuba meraih oh bintang di angkasa
Bm E A A7
Walau tak terdaya kan ku ikhtiar
D
Untuk mu kasih
E C#m F#m
Gembira bersedih selagi ku bernyawa
Bm E A
Untuk mu kasih ku korban apa saja

Strum E and release (2x)

A
Apa saja untukmu
F#m
Kan ku ubah caraku
D A
Jikalau itu yang kau mahu
Dm E
Apa saja demi kebahagiaanmu

Em D
Bukan kupinta yang luarbiasa
Dm A
Cuma secebis janji setia
C#m F#m
Inilah lagu cinta kita
D E
Hanya terbaik untukmu selama-lamanya


#Malaykord



Title: Kru - Apa Saja Chord
Artist: Kru
Review:
Author:
Rate: 4 dari 5
Posted On:


✓ Jika ada sebarang masalah tentang chord lagu diatas sila buat aduan pada Form Report Chord yang disediakan.[REPORT CHORDS]



<
>


Tidak Dapat Apa Yang Anda Cari? Request Chord Disini!