- 0 +

Skip to navigation

malaykord_image JOM! Follow Instagram kitorang @malaykord_official

Chord List

:
09 | A | B | C | D | E | F | G | H | I | J | K | L | M | N | O | P | Q | R | S | T | U | V | W | X | Y | Z | NEW
TOP | 09 | A | B | C | D | E | F | G | H | I | J | K | L | M | N | O | P | Q | R | S | T | U | V | W | X | Y | Z | NEW

Irwansyah - My Heart Chord



Irwansyah - My Heart Chord

Home > > > Irwansyah - My Heart Chord

Report Chord


    Bm  Bb_F#  Em6  G#_E  Dm6  G_D#  Bbm6  F#_D  Cm6  D#

E----x----6-----x----4-----x----3-----x-----2-----x----6--------|
B----7----7-----5----5-----3----4-----x-----3-----1----8--------|
G----7----6-----4----4-----2----3-----3-----2-----0----8--------|
D----9----8-----5----6-----3----5-----3-----4-----1----8--------|
A----9----x-----4----x-----2----x-----4-----x-----0----6--------|
E----7----6-----x----4-----x----3-----3-----2-----x----x--------|

Intro (Bm):

E-----0---------|-----2---0-----|-----0---------|-------------|
B---------3---2-|-------0---0-2-|---------3---2-|-------------|
G-------4---4---|---0-----------|-------4---4---|-----3---4-6-|
D---4-----------|---------------|---4-----------|---2---2-----|
A-2-------------|-2-------------|-2-------------|-------------|
E---------------|---------------|---------------|-2-----------|

E-----0---------|-----2---0-----|-----0---------|----------------|
B---------3---2-|-------0---0-2-|---------3---2-|----------------|
G-------4---4---|---0-----------|-------4---4---|-----3---4-6s11-|
D---4-----------|---------------|---4-----------|---2---2--------|
A-2-------------|-2-------------|-2-------------|----------------|
E---------------|---------------|---------------|-2--------------|

Verse 1 :

Bm         Bb_F#
disini kau dan aku
 
B        Em
terbiasa bersama
 
Em6    F#       Bm
menjalani kasih sayang
 
Em6        F#
bahagia ku denganmu

Verse 2 :

Am            G#_E
pernahkah kau menguntai
 
A           Dm
hari paling indah

Dm6   E      Am
Ku ukir nama kita berdua

Dm6    E
Disini surga kita

Chorus 1 :

Am                  Dm
bila kita mencintai yang lain

G             G#_E    Am
mungkin kah hati ini akan tegar

F              Dm
sebisa mungkin tak akan pernah

Dm6              E
sayang ku akan hilang

Chorus 2 :

Am
if u love somebody
         Dm
could we be this strong

G               G#_E              Am
i will fight to win our love will conquer all

F                     Dm
Wouldn’t risk my love even just one night

Dm6                      E
our love will stay in my heart

Bridge :

Fm           Bbm
my heart....

G_D#  C  Fm

C#  Bbm  Bbm6  C  D

Verse 2 (diff chords) :

Gm            F#_D
pernahkah kau menguntai
 
G           Cm
hari paling indah

Cm6   D      Gm
Ku ukir nama kita berdua

Cm6    D
Disini surga kita

Chorus 1 (diff chords) :

Gm                  Cm
bila kita mencintai yang lain

F             F#_D    Gm
mungkin kah hati ini akan tegar

D#              Cm
sebisa mungkin tak akan pernah

Cm6              D    G#_E
sayang ku akan hilang aaaaaa

Am                  Dm
bila kita mencintai yang lain

G             G#_E    Am
mungkin kah hati ini akan tegar

F              Dm
sebisa mungkin tak akan pernah

Dm6              E
sayang ku akan hilang

Chorus 2 :

Am
if u love somebody
         Dm
could we be this strong

G               G#_E              Am
i will fight to win our love will conquer all

F                     Dm
Wouldn’t risk my love even just one night

Dm6                      E
our love will stay in my heart

Am           F  Dm  E
my heart...  Ohhhh

Am           F  Dm  E
my heart...  Ohhhh

Am
my heart...


#Malaykord



Title: Irwansyah - My Heart Chord
Artist: Irwansyah
Review:
Author:
Rate: 4 dari 5
Posted On:


✓ Jika ada sebarang masalah tentang chord lagu diatas sila buat aduan pada Form Report Chord yang disediakan.[REPORT CHORDS]





Play Youtube
Play Tutorial Guitar


Siapa Irwansyah?


Click to view Comment
<
>


Tidak Dapat Apa Yang Anda Cari? Request Chord Disini!