- 0 +

Skip to navigation

malaykord_imageJom bagi feedback untuk Malaykord T-Shirt Survey!

Chord List

:
09 | A | B | C | D | E | F | G | H | I | J | K | L | M | N | O | P | Q | R | S | T | U | V | W | X | Y | Z | NEW
09 | A | B | C | D | E | F | G | H | I | J | K | L | M | N | O | P | Q | R | S | T | U | V | W | X | Y | Z | NEW | TOP

XPDC - Sakinah Chord



XPDC - Sakinah Chord

Home > > > XPDC - Sakinah Chord

Report Chord

Intro**
(rhythm)
Main smpai habis akustik part
                C          D         Em
E|--3-2-0-------------------2-----------------0---------|
B|----------------1------------3--------0---------------|
G|-------------------0----2----------------0------------|
D|-------------2-------0-------------2------------------|
A|----------3----------------------2--------------------|
E|------------------------------------------------------|

(Lead) Akustik
E|----------5-----------------------------------------------------------------|
B|--5-7-8----8-7-8-7-5------------------------------------------3/5--3p5------|
G|--------------------------7-5-4-2------------------5-4-2-0------------------|
D|---------------------------------------5-4h5p4--2---------------------------|
A|----------------------------------------------------------------------------|
E|----------------------------------------------------------------------------|

E|--7-8-10-8-7-5-----8-7-5------------------------------------------------------|
B|-------------------------8-7---8--7--5-----7-8-7-5--7-8-7-5--7-8-7-5----------|
G|------------------------------------------------------------------------------|
D|------------------------------------------------------------------------------|
A|------------------------------------------------------------------------------|
E|------------------------------------------------------------------------------|

E|---------------------------------------------------------------------------------------------------------|
B|---8-7-5--------------------------------7h8-8/10--8p7-8p7\5--7-8-7-5--7-8-7-5--7-8-7-5--7-8-7-5--7-8-7-5-|
G|----------7-5-4------------------------------------------------------------------------------------------|
D|------------------7-5-4----------------------------------------------------------------------------------|
A|-------------------------7-5h7-7-------------------------------------------------------------------------|
E|---------------------------------------------------------------------------------------------------------|



Dist part

(Rhythm part)
     E5   C5    D5    E5
E|--------------------------------------------|
B|--------------------------------------------|
G|--------5-----7-----------------------------|
D|---2----5-----7-----2-----------------------|
A|---2----3-----5-----2-----------------------|
E|---0----------------0-----------------------|



(Lead Part)

E|-------------5-------------------|---------5---------------5/7--5h7-7-----|
B|------5-7-8----7h8-7---3--3/5-5--|--5-7-8-----7h8-7--5\3------------------|
G|---------------------------------|----------------------------------------|
D|---------------------------------|----------------------------------------|
A|---------------------------------|----------------------------------------|
E|---------------------------------|---------------------------------- -----|

E|-------------5-----------------|------12-14-15-17-15-14-10-12-10h12-12-10h12-12-10h12-12-10h12--|
B|------5-7-8----7h8-7--3-3/5-5--|---12-----------------------------------------------------------|
G|-------------------------------|----------------------------------------------------------------|
D|-------------------------------|----------------------------------------------------------------|
A|-------------------------------|----------------------------------------------------------------|
E|-------------------------------|-----=----------------------------------------------------------|





  Em
Asalnya
 C        D           Em
Memang dulu aku tak percaya
 C            D        Em
Sehingga ku jumpa Sakinah
 C            D         Em
Cinta boleh mencair segala
 C              D           Em
Biar keras bagai teras buana

 Em     C             D          Em
Katakan cantik mana aku tak tergoda
 C          D        Em
Sehingga ku jumpa Sakinah
  C               D         Em
Pintu hati yang tertutup terbuka
C                    D
Datang azam nak mengolah

G        Am
Rancak dunia
  B            C          
Berlagu tipu daya
    D
Mustakim semula


  Em
Biarlah
 C               D         Em
Orang-orang macam aku bahagia
 C          D              Em
Orang-orang macam aku merdeka
  C
Tutup mata
    D           Em
Buka mata Sakinah
    C
Dalam lena
      D        Em
Dalam jaga Sakinah


 C        D     Em
Bila kenal Sakinah
 C         D          Em
Kenal diri siapa sebenar

Em          C
Cairlah segalanya
    Em        C              D    Em
Yang tinggal hanya benar


#Malaykord



Title: XPDC - Sakinah Chord
Artist: XPDC
Review:
Author:
Rate: 4 dari 5
Posted On:


✓ Jika ada sebarang masalah tentang chord lagu diatas sila buat aduan pada Form Report Chord yang disediakan.[REPORT CHORDS]





Play Youtube
Click to view Comment
<
>


Tidak Dapat Apa Yang Anda Cari? Request Chord Disini!