- 0 +

Skip to navigation

malaykord_imageJom bagi feedback untuk Malaykord T-Shirt Survey!

Chord List

:
09 | A | B | C | D | E | F | G | H | I | J | K | L | M | N | O | P | Q | R | S | T | U | V | W | X | Y | Z | NEW
09 | A | B | C | D | E | F | G | H | I | J | K | L | M | N | O | P | Q | R | S | T | U | V | W | X | Y | Z | NEW | TOP

XPDC - Monggol Dah Pulang Chord



XPDC - Monggol Dah Pulang Chord

Home > > > XPDC - Monggol Dah Pulang Chord

Report Chord

Intro
1st gitar
         5x                
-----------------------|-----------------------------------------------------------
-----------------------|-----------------------------------------------------------
-----------------------|-----------------------------------------------------------
-----------------------|--4/5--5-5--4/5--5-7----7-7-7-7-7--------------------------
---4/5--5-5--4/5--5-7--|--2/3--3-3--2/3--3-5----5-5-5-5-5--5-5-5-5-----------------
---2/3--3-3--2/3--3-5--|-----------------------------------3-3-3-3-----------------
2nd gitar
        3x
-----------------|-----------------------------------------------------------------
-----------------|-----------------------------------------------------------------
-----------------|-----------------------------------------------------------------
--7-77----9-12---|-9-99------9-12--11-1111------11--14-12-------7-9-12-------------
-------99--------|------1010---------------1212---------------9--------------------
-----------------|-----------------------------------------------------------------

1st gitar
       
-----------------------|-----------------------------------------------------------
-----------------------|-----------------------------------------------------------
-----------------------|-----------------------------------------------------------
-----------------------|--4/5--5-5--4/5--5-7----7-7-7-7-7--------------------------
---4/5--5-5--4/5--5-7--|--2/3--3-3--2/3--3-5----5-5-5-5-5--5-----------------------
---2/3--3-3--2/3--3-5--|-----------------------------------3-----------------------
2nd gitar        
-----------------|-----------------------------------------------------------------
-----------------|-----------------------------------------------------------------
-----------------|-----------------------------------------------------------------
--7-77----9-12---|-9-99------9-12--11-1111------11--14-12--------------------------
-------99--------|------1010---------------1212------------------------------------
-----------------|-----------------------------------------------------------------

         4x
-------------------------|----------------------------------------------------------
-------------------------|----------------------------------------------------------
-------------------------|----------------------------------------------------------
--------------------5-7--|----------------------------------------------------------
--5--5555-4-5-55----3-5--|-5-555555-5-5/12/5----------------------------------------
--3--3333-2-3-33---------|-3-333333-3-3/10/3----------------------------------------
     <-pm------->            <-pm->
    oi! oi! oi!

          G
Di Luar Goyang Di Dalam Goncang
           G
Bergema Gendang Monggol Dah Pulang
          C             D
Ke Mana Hilang Perwira Kita
         G
Penjaga Kota
          C               D
Ke Mana Hilang Panglima Kita
           G
Pembela Bangsa

             G
Di Luar Goyang Di Dalam Goncang
            G
Belum Berperang Monggol Dah Menang
           C                D
Bagdad Tercinta Bagaikan Bunga
         G
Pudar Serinya
         C              D      
Sinar Tamadun Bagaikan Api
          B    A          G    F#     Em
Disiram Hujan Tinggalkah Bara Menanti Percik
        A
Batu Dilaga
        B     A      G       F#     Em          
Tangan Siapa Tangan Bertuah  Tangan Berjasa
        A
Dalam Berjuta
        G
la Berjaya
          F#              G                                   A
Hari Dah Siang Menteri Jelang Monggol Dah Pulang Monggol Dah Pulang
          F#              G                                    A
Hari Dah Siang Mentari Jelang Monggol Dah Pulang Monggol Dah Pulang
            B       G        A          
Namun Panji Ku Masih Setengah Tiang
            B        G           A      
Namun Mimpi Ku Masih Terus Terus Terhalang
            B         G            A
Namun Manisku Masih Lagi Lagi Terkenang
             B        G            A
Namun Langkahku Masih Belum Belum Terancang
           G
Masih Terumbang

Solo
    G        Em         C          D           2x        G
---------------------------------------------------|----------------------------------
---------------------------------------------------|----------------------------------
---------------------------------------------------|----------------------------------
------------------------------2-2-5------4-4-7-----|----------------------------------
--------22-5---------2---3-33-------5-55-----------|----------------------------------
--3--33------0-00-33-------------------------------|-----3-3333333--------------------
  G         Em         C       D      x2     G        Em
-----------------------------------------|--------------------------------------------
-----------------------------------------|--------------------------------------------
--------------------4--5-4-------4-------|---777-5-4--777-5-4-------------------------
--5-55-77-9-------5--------7-5-7---7-----|--------------------------------------------
-------------7-77------------------------|--------------------------------------------
-----------------------------------------|--------------------------------------------

 C       D              G        Em   C      D     G
-------------------------------------10-8-88-7-----10p8p7------7-------------------10-
--------------787-----8-10-8--88-7-------------10---------10p8---10p8p7-10-8p7--------
-777-545-77-7-----777--------------9-------------------------------------------9-7----
--------------------------------------------------------------------------------------
--------------------------------------------------------------------------------------
--------------------------------------------------------------------------------------
                                                                           &n bsp;       P.H.
          G
Di Luar Goyang Di Dalam Goncang
           G
Bergema Gendang Monggol Dah Pulang
          C             D
Ke Mana Hilang Perwira Kita
         G
Penjaga Kota
          C               D
Ke Mana Hilang Panglima Kita
           G
Pembela Bangsa
             G
Di Luar Goyang Di Dalam Goncang
            G
Belum Berperang Monggol Dah Menang
           C                D
Bagdad Tercinta Bagaikan Bunga
         G
Pudar Serinya
         C              D      
Sinar Tamadun Bagaikan Api
          B    A          G    F#     Em
Disiram Hujan Tinggalkah Bara Menanti Percik
        A
Batu Dilaga
        B     A      G       F#     Em          
Tangan Siapa Tangan Bertuah  Tangan Berjasa
        A
Dalam Berjuta
        G
la Berjaya
          F#              G                                   A
Hari Dah Siang Menteri Jelang Monggol Dah Pulang Monggol Dah Pulang
          F#              G                                    A
Hari Dah Siang Mentari Jelang Monggol Dah Pulang Monggol Dah Pulang
          F#              G                                  A
Di Luar Goyang Di Dalam Goncang Bergema Gendang Monggol Dah Pulang
            F#             G                                  A
Di Luar Goyang Di Dalam Goncang Belum Berperang Monggol Dah Menang
           B        G        A          
Namun Panji Ku Masih Setengah Tiang
            B        G           A      
Namun Mimpi Ku Masih Terus Terus Terhalang
            B         G            A
Namun Manisku Masih Lagi Lagi Terkenang
             B        G            A
Namun Langkahku Masih Belum Belum Terancang
            B        G        A          
Namun Panji Ku Masih Setengah Tiang
            B        G           A      
Namun Mimpi Ku Masih Terus Terus Terhalang
          G
Masih Terumbang
                     5x
---------------------------|-----7-----------------------------------------------------
---------------------------|-----12--12p10-8-10-8-7------------------------------------
---------------------------|------------------------7-5-4------------------------------
-------------------55-77---|-------------------------------5--7-----5------------------
--------55-22------33-55---|----------------------------------------5------------------
--3-333-------3333---------|----------------------------------------3------------------
<----------p.m.---------->

p.m.= palm mute
p.h.= pinch harmonic
p   = pull off
h   = hammer on
/   = slide


#Malaykord



Title: XPDC - Monggol Dah Pulang Chord
Artist: XPDC
Review:
Author:
Rate: 4 dari 5
Posted On:


✓ Jika ada sebarang masalah tentang chord lagu diatas sila buat aduan pada Form Report Chord yang disediakan.[REPORT CHORDS]





Play Youtube
Click to view Comment
<
>


Tidak Dapat Apa Yang Anda Cari? Request Chord Disini!