- 0 +

Skip to navigation

malaykord_image Malaykord APP 2020 version! Download now!

Chord List

:
09 | A | B | C | D | E | F | G | H | I | J | K | L | M | N | O | P | Q | R | S | T | U | V | W | X | Y | Z | NEW
09 | A | B | C | D | E | F | G | H | I | J | K | L | M | N | O | P | Q | R | S | T | U | V | W | X | Y | Z | NEW | TOP

Faizal Tahir - Sampai Syurga Chord



Faizal Tahir - Sampai Syurga Chord

Home > > > Faizal Tahir - Sampai Syurga Chord

Report Chord

Dm    - xx0231
Cadd9 - x32033
Gm    - 355333
Gmaj  - 320033
Dadd11- 200033
Em7   - x22022

Intro :

Dm...Cadd9....Gm.....
plucking la sampai dpt...

Dm              Cadd9
Ku membenarkan jiwaku
Gm
Untuk mencintaimu
Dm              Cadd9
Ku persembahkan hidupku
Gm
Untuk bersama kamu

        Dm Cadd9   Gm
Dan diriku untuk kamu
Dm                Cadd9    Gm
Belum pernah kumerasai begitu

*chord sama

Semua itu telah berlalu
Harapanku palsu
Dan mungkin hari yang satu
Terus ku tertunggu

Di hatiku masih kamu
Belum pernah ku ingin terus memburu

Chorus :

Gmaj     Dadd11      Em7
ooo Aku  lemah tanpa kamu
        Cadd9       G
Ku inginmu dampingi ku
    Dadd11     Em7      Cadd9
Aku fahami aku bukan terbaik
          Gmaj
Untuk dirimu
      Dadd11    Em7
Namun aku tetap aku
        Cadd9          Gmaj
Yang terbaik untuk diriku
      Cadd9
Hanya satu
      Dm    Cadd9   Gm
Hanya kamu

*chord sama

Ku membiarkan hatiku
Untuk merinduimu
Ku menghamparkan sakitku
Untuk tatapan kamu

Bersamamu harapanku
Hilang dalam terang yang membutakanku


Chorus (2nd guitar) :

 E   E  E   E  E   E  E   E  
------------10------------10--|
--8s--7--8------8s--7--8------|
------------------------------|
------------------------------|
------------------------------|
------------------------------|

  E   E  E   E  E   E  E   E  
------------10------------10--|
--8s--7--8------8s--7--8------|
------------------------------|
------------------------------|
------------------------------|
------------------------------|

  E   E  E   E  E   E  E   E  
------------10------------10--|
--8s--7--8------8s--7--8------|
------------------------------|
------------------------------|
------------------------------|
------------------------------|

  E   E  E   E  E   E  E   E  
--------------------------10--|
--8p--7---------8s--7--8------|
---------9s--7----------------|
------------------------------|
------------------------------|
------------------------------|

  E   E  E   E  E   E  E   E  
------------10------------10--|
--8s--7--8------8s--7--8------|
------------------------------|
------------------------------|
------------------------------|
------------------------------|

  E   E  E    E  E   E  E    E  
--------------------------------|
--7s--8--8s--10--7s--8--8s--10--|
--------------------------------|
--------------------------------|
--------------------------------|
--------------------------------|

   E    E   E    E   E    E   E    E  
--------------------------------------|
--10s--12--12s--15--10s--12--12s--15--|
--------------------------------------|
--------------------------------------|
--------------------------------------|
--------------------------------------|

   E    Q     E   Q    E   E  
------------------------------|
--10s--12----12s--8----7s--8--|
------------------------------|
------------------------------|
------------------------------|
------------------------------|

  E  E  Q     E    Q     E  
-----------------------------|
--8--8--8----10s--12----12s--|
-----------------------------|
-----------------------------|
-----------------------------|
-----------------------------|

  Q    E   E  E  E  Q    
-------------------------|
--8----7s--8--7----------|
-----------------9--7----|
-------------------------|
-------------------------|
-------------------------|

   E    Q     E   Q    E   E  
------------------------------|
--10s--12----12s--8----7s--8--|
------------------------------|
------------------------------|
------------------------------|
------------------------------|

  E  E  E   E  E   E  E   E  
-----------------------------|
--8--8--8s--7----------------|
---------------7p--5---------|
----------------------9s--7--|
-----------------------------|
-----------------------------|

  E   E   E  E   E   E  E   E  
-------------------------------|
-------------------------------|
-------------------------------|
--5s--7p--5--------------------|
-------------9p--7p--5---------|
------------------------8p--7--|

  W                
-------------------||
-------------------||
-------------------||
-------------------||
-------------------||
--L----------------||

*chord sama (2nd guitar)

Aku lemah tanpa kamu
Ku inginmu dampingi ku
Aku fahami aku bukan terbaik
Untuk dirimu

Sampai syurga ku menunggu
Sampai syurga ku cintamu
      Cadd9
Hanya kamu

Em7 D              Cadd9
Dan segala yang ku ada
Dadd11     Em7  
Ku berikan semua
  D          Cadd9
Untuk dirimu saja
Ku mahu dirimu
Em7  D        Cadd9
Bahagia untuk selamanya
            Am
Biar sampai syurga
             C            
Aku menunggu cinta darimu
D       Gmaj     Dadd11 Em7 Cadd9
Agar ku sempurna........aaa

(2nd guitar)

     E   E  E   E  E   E  E   E  
E||------------------------------|
B||--8s--7---------8s--7---------|
G||---------9p--7---------9p--7--|
D||------------------------------|
A||------------------------------|
E||------------------------------|

  E   E  E  E   E  E   E  E  
------------------------------|
------------8s--7---------8s--|
---------7---------9p--7------|
--7s--9-----------------------|
------------------------------|
------------------------------|

  E  E   E  E   E  E   E  E  
-----------------------------|
--7--------------------------|
-----9s--7-------------------|
------------7s--5--5s--7--9--|
-----------------------------|
-----------------------------|

Gmaj Dadd11     Em7      Cadd9
 Aku fahami aku bukan terbaik
          Gmaj
Untuk dirimu
      Dadd11    Em7
Namun aku tetap aku
     Cadd9           Gmaj  Dadd11
Yang terbaik tuk diriku
      Cadd9
Hanya satu

Gmaj  Dadd11      Em7
  Aku lemah tanpa kamu
        Cadd9       Gmaj  
Ku inginmu dampingi ku
    Dadd11     Em7      Caddd9
Aku fahami aku bukan terbaik
          Gmaj
Untuk dirimu
       Dadd11      Em7
Sampai syurga ku menunggu
          Cadd9       Gmaj  Dadd11
Sampai syurga ku cintamu
      Em7  Cadd9...Dadd11
Hanya kamu............


#Malaykord



Title: Faizal Tahir - Sampai Syurga Chord
Artist: Faizal Tahir
Review:
Author:
Rate: 4 dari 5
Posted On:


✓ Jika ada sebarang masalah tentang chord lagu diatas sila buat aduan pada Form Report Chord yang disediakan.[REPORT CHORDS]





Play Youtube
Click to view Comment
<
>


Tidak Dapat Apa Yang Anda Cari? Request Chord Disini!