- 0 +

Skip to navigation

malaykord_image Malaykord APP 2019 version! Download now!
Chord List: 09 | A | B | C | D | E | F | G | H | I | J | K | L | M | N | O | P | Q | R | S | T | U | V | W | X | Y | Z | NEW
09 | A | B | C | D | E | F | G | H | I | J | K | L | M | N | O | P | Q | R | S | T | U | V | W | X | Y | Z | NEW | TOP

Wings - Nur Nilam Sari Chord



Wings - Nur Nilam Sari Chord

Home > > > Wings - Nur Nilam Sari Chord

Report Chord

Key Fmajor

Q Q Q Q
E||-------------------------|
B||-------------------------|
G||-------------------10----|
D||-------0s----12----------|
A||-------------------------|
E||-------------------------|

Bb..................
W
--full bend-----------|
--11br----------------|
----------------------|
----------------------|
----------------------|
----------------------|

Bb........................
Q E Q E E E
------------------------------|
------------------------------|
--10~----L--L---------10------|
-----------------/12------12--|
------------------------------|
------------------------------|

Am.........................
H E E E E
---------------------12s--13--|
--11br---------L--L-----------|
------------------------------|
------------------------------|
------------------------------|
------------------------------|

Am...........................
E E E Q E Q
--12--------------------------|
------9s--8--9----11--11br----|
------------------------------|
------------------------------|
------------------------------|
------------------------------|

Gm......................
Q Q H
-------------------------|
--L-----L----/11~--------|
-------------------------|
-------------------------|
-------------------------|
-------------------------|

Gm.............................
H S S E E E
----------------------------------|
--/10~--------10h-11p-10------10--|
--------------------------12------|
----------------------------------|
----------------------------------|
----------------------------------|

C..........................
Q E E Q Q
------------------------------|
------------------------------|
--12~-----L--10--10~----5~----|
------------------------------|
------------------------------|
------------------------------|

C..........................
Q Q Q E E
-----------------------------|
-----------------------------|
--/9s----7----9~-------------|
--------------------/10--12--|
-----------------------------|
-----------------------------|

Bb.........................
H E E Q
-----------------------------|
-----------------------------|
--10~--------12--10h--12~----|
-----------------------------|
-----------------------------|
-----------------------------|

Bb.............................
E E E E E E E E
-----10------10---------------------|
---------13------12b----------------|
--L-------------------10h--12--10b--|
------------------------------------|
------------------------------------|
------------------------------------|

Dm......................
H H
--13br--------13br--------|
--------------------------|
--------------------------|
--------------------------|
--------------------------|
--------------------------|

Dm.....................
E E H Q
--10--13--10--------L----|
-------------------------|
-------------------------|
-------------------------|
-------------------------|
-------------------------|

D#......................
H E E E E
---------------------------|
---------------------------|
--8---------8---7---5---8--|
--8---------8---7---5---8--|
--6s--------6s--5s--3s--6--|
---------------------------|

D#......................
H E E E E
---------------------------|
---------------------------|
--8---------8---7---5---8--|
--8---------8---7---5---8--|
--6s--------6s--5s--3s--6--|
---------------------------|

F..........................
H E E E E
------------------------------|
------------------------------|
--10---------10---9---7---10--|
--10---------10---9---7---10--|
---8s---------8s--7s--5s---8--|
------------------------------|

F.........................
H Q Q
--------------------------|
--------------------------|
--10---------7-----10-----|
--10---------7-----10-----|
---8s--------5s-----8s----|
--------------------------|

Dm................................

-------------------|-------------------|
-------------------|-------------------|
--7----------------|-------------------|
--7----------------|-------------------|
--5----------------|--L----------------|
-------------------|-------------------|

Dm Am
Pinjam sinarmu Nur Nilam Sari
A# C
Buatku merempuhi malam
Dm Am
Kabus berlabuh bagaikan awan
A# C
Mengaburi penglihatan
Gm C
Menyekat maksud di sempadan
Gm C
Redup yang ku pasangkan angan

F
Sekadar berhasrat
Dm
Berlindung dalam lena
Am
Pejamkan mata untuk ku lupakan sengsara

A# Gm
Berapa kerdipan melaraskan jiwa
C F
Menyusun ke arah asalku

F Gm
Senyuman satu azimat
C
Buat diriku yang hina manusia terpinggir
F
Hidup melara

Gm
Tak pernah kenal erti bahagia
C
Namunku masih gembira bagiku rahmat
F
Semuanya

Am
Oh mungkin kalau nasibku berbeza
A# C
Aku tak mampu menilaikan dikau

Solo :
F C F C
F C A# C
Dm Am A# C

Gm
Aku berani berani aku
C
Katakan dirimu itu…dewi kayangan

Ulang chorus

A# D#
Peperangan yang melanda diriku
C
Kini sudah berakhir ooh berakhir
A# D#
Kepahitan dulu bertukar menjadi sejarah
C
Dan kenangan manis

b - bend
br - bendRelease
s - legato slide
h - hammer on
p - pull off
/ - slide into from below or out of upwards
- slide into from above or out of downwards
~ - vibrato
W - whole
H - half
Q - quarter
E - 8th
S - 16th
L - tied not


#Malaykord



Title: Wings - Nur Nilam Sari Chord
Artist: Wings
Review:
Author:
Rate: 4 dari 5
Posted On:


✓ Jika ada sebarang masalah tentang chord lagu diatas sila buat aduan pada Form Report Chord yang disediakan.[REPORT CHORDS]



<
>


Tidak Dapat Apa Yang Anda Cari? Request Chord Disini!