- 0 +

Skip to navigation

malaykord_imageJom bagi feedback untuk Malaykord T-Shirt Survey!

Chord List

:
09 | A | B | C | D | E | F | G | H | I | J | K | L | M | N | O | P | Q | R | S | T | U | V | W | X | Y | Z | NEW
09 | A | B | C | D | E | F | G | H | I | J | K | L | M | N | O | P | Q | R | S | T | U | V | W | X | Y | Z | NEW | TOP

Tropika - Cinta Pantai Merdeka Chord



Tropika - Cinta Pantai Merdeka Chord

Home > > > Tropika - Cinta Pantai Merdeka Chord

Report Chord

Note :

\ = slide to low chord
/ = slide to high chord
h = hammer on
PM  = pump mute

    Am  Dm  C   G   F   E   \B
e|--0---1---0---3---1---0---0|
B|--1---3---1---3---1---0---0|
G|--2---2---0---4---2---1---0|
D|--2---0---2---5---3---2---0|
A|--0---X---3---5---3---2---2|
E|--X---X---X---3---1---0---X|
-- SONG IN Am KEY --

Intro :

e|--0-0-0-0-0-0-0-0-0--|--------------0--|
B|--0-0-3-1-0-0-0-3-1--|--------------0--|
G|--2-2-2-2-2-2-2-2-2--|--------------1--|
D|--2-2-2-2-2-2-2-2-2--|--2-2-3\2-----2--|
A|--0-0-0-0-0-0-0-0-0--|----------5-3-2--|
E|---------------------|--------------0--|
                         .PM?
Verse :

Am             Dm
Telah bertahun lama
G                 C \B Am
Tenggelam arus masa
Am              Dm
Di dalam ingatan ku
G               Am
Masih segar merasa
e|--0-0-0-0-0-0-0-0-0--|
B|--0-0-3-1-0-0-0-3-1--|
G|--2-2-2-2-2-2-2-2-2--|
D|--2-2-2-2-2-2-2-2-2--|
A|--0-0-0-0-0-0-0-0-0--|
E|---------------------|
Am           Dm
Kekalkan aku sama
G                 C \ B Am
Mengatur bunga cinta
Am             Dm
Keadaan ku memaksa
G             Am
Kita terpisah jua
G                Am
Andainya aku berdaya
G                     C\ B Am
Kan ku coretkan untuk mu
G            Am
Sebagai kenalan kita
G                 C
Kan ku buktikan untuk mu
Dm   E/F          E
Akan ......?aku buktikan

Am                    G           F
Ku ukir nama mu di awan gunung jerai
    E                  Am
Bersaksikan laut daun nyiur melambai
Am                           G            F
Jauh pemandangan permai di situ tanjung dawai
   E                   Am
Terkenang peristiwa cinta kita bersama
      Dm        Am
Oh indahnya peritiwa
       F                 E
Cinta kita di pantai merdeka
E
oo.......ooo?.ooo......
     Am           Dm
Masih ingatkah oh kekasih
      G                C /E
Biar pun kini kau dimana
      Am            Dm
Namun dengarlah lagu ini
     F         G         Am
Cinta kita di pantai merdeka

Solo

   Am                G                               E
e|---------------------------------|-------------------------|
B|---------------------------------|-------------------------|
G|---4h5-----4-5-4h5\4---4-----4---|-----4h5\4---4-------4---|
D|-7-------7-----------7---5-7-----|-5-7-------7---7-6-7-----|
A|---------------------------------|-------------------------|
E|---------------------------------|-------------------------|
                 Am                Dm                       Am
e|-----------------------|---------------------------7-8-10-7h8\7------|
B|-----------------------|----------------------8-10--------------10---|
G|-----4-5-7-5-4?h5\4---|-----4-5-7/9-7-9--7-9-------------------------|
D|-5-7-----------------7-|-5-7-----------------------------------------|
A|-----------------------|---------------------------------------------|
E|-----------------------|---------------------------------------------|
                F
e|-------------------------------8-10---|
B|---5-6-8/10-8-6-6h8\6?-6-8-10---------|
G|-7------------------------------------|
D|--------------------------------------|
A|--------------------------------------|
E|--------------------------------------|
    E                                                       Am
e|-12h13--10h12--8h10--7h8-------------------------------------|
B|--------------------------8h10--7h8--5h7---------------------|
G|------------------------------------------7h9\7--9-5-7-4-5---|
D|-----------------------------------------------------------7-|
A|-------------------------------------------------------------|
E|-------------------------------------------------------------|

      Am              Dm
Masih ingatkah oh kekasih
        G              C /E
Biar pun kini kau dimana
      Am            Dm
Namun dengarlah lagu ini
       F      G          Am
Cinta kita di pantai merdeka

e|-13h15--12h13--10h12--8h10--7h8--------------------------|
B|---------------------------------8h10--7h8---------8-10--|
G|--------------------------------------------9-7-9--------|
D|---------------------------------------------------------|
A|---------------------------------------------------------|
E|---------------------------------------------------------|
e|------------7-8-10---10h8\7-----8-7-------------|
B|-----7-8-10-----------------10------10-8-7-8-10-|
G|-7-9--------------------------------------------|
D|------------------------------------------------|
A|------------------------------------------------|
E|------------------------------------------------|

*This verse is using distortion
Am                   G              F
Ku ukir nama mu di awan gunung jerai
    E                  Am
Bersaksikan laut daun nyiur melambai
Am                           G                F
Jauh pemandangan permai di situ tanjung dawai
   E                                Am
Terkenang peristiwa cinta kita bersama

*Pause in 2 second
      Dm          Am
Oh indahnya peritiwa
       F                  E
Cinta kita di pantai merdeka
      Am               Dm
Masih ingatkah oh kekasih
      G                C /E
Biar pun kini kau dimana
   Am                 Dm
Namun dengarlah lagu ini
       F       G         Am
Cinta kita di pantai merdeka  (2x)

*Time 'oh indahnya for the last verse try to play this tabs
e|------------7-8-10---10h8\7-----8-7---------------|
B|-----7-8-10-----------------10------10-8-7-8-10---|
G|-7-9----------------------------------------------|
D|--------------------------------------------------|
A|--------------------------------------------------|
E|--------------------------------------------------|
  ------------------ play fast ---------------------|
e|-10-8-7h8h7h8-----8-----8-------------|
B|--------------10h---10h---10-7-8-10---|
G|--------------------------------------|
D|--------------------------------------|
A|--------------------------------------|
E|--------------------------------------|
  ------------ play fast ---------------|
e|-7h8\7--12h13\12-----5-7-8---5-7-8--|
B|------------------------------------|
G|------------------------------------|
D|------------------------------------|
A|------------------------------------|
E|------------------------------------|
|-- play fast --|

Outro

e|--0-0-0-0-0-0-0-0-0--|
B|--0-0-3-1-0-0-0-3-1--|
G|--2-2-2-2-2-2-2-2-2--|
D|--2-2-2-2-2-2-2-2-2--|
A|--0-0-0-0-0-0-0-0-0--|
E|---------------------|


#Malaykord



Title: Tropika - Cinta Pantai Merdeka Chord
Artist: Tropika
Review:
Author:
Rate: 4 dari 5
Posted On:


✓ Jika ada sebarang masalah tentang chord lagu diatas sila buat aduan pada Form Report Chord yang disediakan.[REPORT CHORDS]





Play Youtube
Click to view Comment
<
>


Tidak Dapat Apa Yang Anda Cari? Request Chord Disini!