Thomas Arya - Bunga Chord

🌙
Intro :

|--------------|-------------------------------5-----8-7-5--8/10-7-|--5-7-5---7/8-7-5---7-8-10-10/12-|
|----5---5-----|------5-----8-6-5-6/8-6----6-8---8-6---------------|--------6------------------------|
|------7---7-5-|--5-7---7-5----------------------------------------|---------------------------------|
|--7-----------|---------------------------------------------------|---------------------------------|
|--------------|---------------------------------------------------|---------------------------------|
|--------------|---------------------------------------------------|---------------------------------|

|--------------|--------------------------5---8-7-5-7-|--5-7-5---7/8-7-5----|
|----5---5-----|------5-----8-6-5-6---6-8---6---------|--------6------------|
|------7----5--|--5-7---7-5---------------------------|---------------------|
|--7-----------|--------------------------------------|---------------------|
|--------------|--------------------------------------|---------------------|
|--------------|--------------------------------------|---------------------|

 Am               G
merana kini aku merana
Dm                    Am
kekasih tercinta entah kemana
 Am               G
sendiri kini ku dibalut sepi
Dm                    Am
tiada tempat kubercurah lagi

 Am               G
dimana kini entah dimana
Dm                    Am
bunga impian yang indah di mata
 Am               G
kurindu tutur sapamu nan manja
Dm                    Am
saat kau berada disisi ku

 Am               G
kini tinggallah kusendiri
                    Am
hanya berteman dengan sepi
 Am               G
menanti dirimu kembali
                    Am
disini ku terus menanti
 Am          Dm           G         Am
akan kucuba untuk menanti dirimu kekasih

 Am
oh bunga
                   G
dimana kini kau berada
                  Dm
jangan biarkan diriku
             Am
dalam kesorangan

  Am
oh bunga
                          G
jangan kau gores luka didada
                         Dm
sungguh diriku takkan kuasa
               Am
campakkan kenangan
Am      Dm
ho ho ho
G        Am
oh bungaku
Am     Dm
ho ho ho
G        Am
oh bungaku

Solo :

|--------------|-------------------------------5-----8-7-5--8/10-7-|--5-7-5---7/8-7-5---7-8-10-10/12-|
|----5---5-----|------5-----8-6-5-6/8-6----6-8---8-6---------------|--------6------------------------|
|------7---7-5-|--5-7---7-5----------------------------------------|---------------------------------|
|--7-----------|---------------------------------------------------|---------------------------------|
|--------------|---------------------------------------------------|---------------------------------|
|--------------|---------------------------------------------------|---------------------------------|

|--------------|--------------------------5---8-7-5-7-|--5-7-5---7/8-7-5----|
|----5---5-----|------5-----8-6-5-6---6-8---6---------|--------6------------|
|------7----5--|--5-7---7-5---------------------------|---------------------|
|--7-----------|--------------------------------------|---------------------|
|--------------|--------------------------------------|---------------------|
|--------------|--------------------------------------|---------------------|

Am  Dm  G  Am
Am  Dm  G  Am


Play Tutorial Guitar


Senarai Chord Thomas Arya


Siapa Thomas Arya?

Cari Barang Berkenaan Thomas Arya



Loading....

Chord Lain:

Chord Suggestion:
<
>

Youtube - 0 + Autoscroll 0 Transpose