The Times - Tunjuk Perasaan Chord

🌙
Anda suka Malaykord Versi Baru?
Intro and Outro :

|----------------|---------------|---------------|
|----------------|---------------|---------------|
|----------------|---------------|---------------|
|----------------|---------------|--2--2-2--2--2-|
|---2--2-2--2--2-|--3--3-3--3--3-|-3-33---33-33--|
|--3-33---33-33--|-5-55---55-55--|---------------|

|----------------|
|----------------|
|----------------|
|----------------|
|---2--2-2--2--2-|
|--3-33---33-33--|

G                                Am
Memandang wajahmu Kabur pandanganku
                           C
Seakan dibunuh Bayang-bayang
            G
Mencari siang
G                             Am
Getaran jiwamu Tewas ditanganmu
                             C
Seakan dirundung Mendung hitam
               G
Tiadaku meradang
G                         Am
Rasa sayang tunjuk perasaan
                          C
Esok ludah bukan permainan
                      G
Panah menusuk jantungmu
G
Kacau
              Am
Sungguh kacau jiwamu
         C
Siapakah sipemburu
         G              F
Tersesat di tengah malam


Play Tutorial Guitar


Senarai Chord The Times


Siapa The Times?

Cari Barang Berkenaan The Times



Loading....

Chord Lain:

Chord Suggestion:
<
>

Youtube - 0 + Autoscroll 0 Transpose