- 0 +

Skip to navigation

malaykord_imageJom bagi feedback untuk Malaykord T-Shirt Survey!

Chord List

:
09 | A | B | C | D | E | F | G | H | I | J | K | L | M | N | O | P | Q | R | S | T | U | V | W | X | Y | Z | NEW
09 | A | B | C | D | E | F | G | H | I | J | K | L | M | N | O | P | Q | R | S | T | U | V | W | X | Y | Z | NEW | TOP

The Times - Singapura - Kuala Lumpur Chord



The Times - Singapura - Kuala Lumpur Chord

Home > > > The Times - Singapura - Kuala Lumpur Chord

Report Chord

(B / B)   D#m  C#m   (E / E)   F#  G#m
     
-7----2----6----4----7-----0----2----4-
-7----4----7----5----9-----0----2----4-
-8----4----8----6----9-----1----3----4-
-9----4----8----6----9-----2----4----6-
-9----2----6----4----7-----2----4----6-
-7-------------------------0----2----4-

Intro :
B D#m C#m ..
B C#m D#m ..

 B        C#m    D#m        C#m
  Dari singapura, ke kuala lumpur..
 B          C#m   D#m        C#m
  Redupnya cuaca, bila kau muncul..

 E      D#m        C#m     F#
  Siapa gerangan, pemuda bersama mu..
 E      D#m        C#m      F#
  Nyata gagalnya, citarasa mu..

Chorus :
 
          E              F#            
     Pandu kereta laju-laju
         D#m           G#m -  F#       E
     merbahaya bila kau teringat diri ku
              F#           B
     Disaat kubelai rambut mu..
 
         E                F#  
     tentu Sahaja Mewah Hidupmu
          D#m             G#m -  F#      E
     apa Sahaja Di Dunia Semua Milikmu
             F#                     B D#m C#m  B C#m D#m ..
     Tapi Sayang kau bukan Untukku..       uhu..

 B         C#m    D#m        C#m
  Jangan Pura-pura Tak Mengenalku..
 B          C#m    D#m        C#m
  Ku tahu kau cuba menarik perhatianku..

 E      D#m        C#m     F#
  Mengapa Kau Cuba Bersembunyi Dari ku..
 E       D#m        C#m      F#
  Ada Rahsia Di Sebalik Senyummu..

----------------------------------------------7----------7--9h11--9--7-----------7--9h11--9--7---
------7---7h9--7-------7----------7------7--9------7--9----------------7----7--9-----------------
--8-----8--------8--6------6--8-----6--8---------------------------------------------------------
-------------------------------------------------------------------------------------------------
-------------------------------------------------------------------------------------------------
-------------------------------------------------------------------------------------------------
         
-------7---------9-----------11--11--11--11--11--11--11--11---9--9--9--9--9--7--7--7-------------
--7h9------7--9------7--9------------------------------------------------------------------------
-------------------------------------------------------------------------------------------------
-------------------------------------------------------------------------------------------------
-------------------------------------------------------------------------------------------------
-------------------------------------------------------------------------------------------------

----------------------------------------------7----------7--9h11--9--7-----------7--9h11--9--7---
------7---7h9--7-------7----------7------7--9------7--9----------------7----7--9-----------------
--8-----8--------8--6------6--8-----6--8---------------------------------------------------------
-------------------------------------------------------------------------------------------------
-------------------------------------------------------------------------------------------------
-------------------------------------------------------------------------------------------------

-------7--------9------------11--11--11--11--11--11--11---12--12--12--12--12--12--12--12---------
--7h9-----7--9-------7--9------------------------------------------------------------------------
-------------------------------------------------------------------------------------------------
-------------------------------------------------------------------------------------------------
-------------------------------------------------------------------------------------------------
-------------------------------------------------------------------------------------------------



#Malaykord



Title: The Times - Singapura - Kuala Lumpur Chord
Artist: The Times
Review:
Author:
Rate: 4 dari 5
Posted On:


✓ Jika ada sebarang masalah tentang chord lagu diatas sila buat aduan pada Form Report Chord yang disediakan.[REPORT CHORDS]





Play Youtube
Click to view Comment
<
>


Tidak Dapat Apa Yang Anda Cari? Request Chord Disini!