- 0 +

Skip to navigation

malaykord_imageJom bagi feedback untuk Malaykord T-Shirt Survey!

Chord List

:
09 | A | B | C | D | E | F | G | H | I | J | K | L | M | N | O | P | Q | R | S | T | U | V | W | X | Y | Z | NEW
09 | A | B | C | D | E | F | G | H | I | J | K | L | M | N | O | P | Q | R | S | T | U | V | W | X | Y | Z | NEW | TOP

The Divine Masters - Merpati Putih Chord



The Divine Masters - Merpati Putih Chord

Home > > > The Divine Masters - Merpati Putih Chord

Report Chord

Intro :
Lead Guitar

             E  E  E  E  E  E  E  E     E  E  E  E  E  E  E  E  
E||--7-----7-----7-----8--7--|--L-----7-----7-----8--7--|
B||-----8-----8-----8--------|-----8-----8-----8--------|
G||--------------------------|--------------------------|
D||--------------------------|--------------------------|
A||--------------------------|--------------------------|
E||--------------------------|--------------------------|

  E  E  E  E  E  E  E  E  
--L-----7-----7-----8--7--||
-----8-----8-----8--------||
--------------------------||
--------------------------||
--------------------------||
--------------------------||

Intro :
Power Chord

     E  E  E  E  E  E  E  E      E   E    E   E   E  E   E  E  
E||--------------------------|---------------------------------|
B||--------------------------|---------------------------------|
G||--------------------------|--12--12s--11--11s--9--9s--7--7--|
D||--5--5--5--5--5--5--5--5--|---x---x----x---x---x--x---x--x--|
A||--5--5--5--5--5--5--5--5--|--10--10s---9---9s--7--7s--5--5--|
E||--3--3--3--3--3--3--3--3--|---------------------------------|


  E  E  E  E  E  E  E  E      E   E    E   E   E  E   E  E  
--------------------------|---------------------------------|
--------------------------|---------------------------------|
--------------------------|--12--12s--11--11s--9--9s--7--7--|
--9--9--9--9--9--9--9--9--|---x---x----x---x---x--x---x--x--|
--9--9--9--9--9--9--9--9--|--10--10s---9---9s--7--7s--5--5--|
--7--7--7--7--7--7--7--7--|---------------------------------|

  E  E  E  E  E  E  E  E     E  E  E  E  E  E  E  E  
--------------------------|--------------------------|
--------------------------|--------------------------|
--------------------------|--7--7--7--7--7--7--7--7--|
--7--7--7--7--7--7--7--7--|--7--7--7--7--7--7--7--7--|
--7--7--7--7--7--7--7--7--|--5--5--5--5--5--5--5--5--|
--5--5--5--5--5--5--5--5--|--------------------------|

  E  E  E  E  E  E  E  E                                                  
--------------------------|
--------------------------|
--------------------------|
--5--5--5--5--5--5--5--5--|
--5--5--5--5--5--5--5--5--|
--3--3--3--3--3--3--3--3--|

G                            Bm
Kau merpati putih terbang di awanan
Bm  A#m Am      D          G
Ku ingin ikut bersamamu di sana
G                           Bm
Sucinya hatimu seputih warnamu
Bm A#m Am          D        G
Lembutnya sifatmu indahnya rupamu

Ulang intro

G                     Bm
Berkali ku tunggu utk melihatmu
Bm A#m Am              D        G
di tempat yg engkau singgahi selalu
G                    Bm
sayangnya diriku tak sesuci kamu
Bm A#m Am             D      G
ku bisa memandang tak dekat padamu

Chorus :

C          Bm        Em           Bm
Sedar diri ini sebab tak hentinya mati (lirik xbetol)
A#m Am                      D
sampai masa ku kan jatuh ke bumi
C          Bm              Em        Bm
walau pada hakikatnya kita tak dapat bersama
A#m Am           D               G     Em
agar kau dapat tahu diari di hatiku....
Bm           Bm
Woo oh oh.......
A#m Am           D               G    
agar kau dapat tahu diari di hatiku...

G              Bm
Ku tulis puisi cerita diriku
Bm A#m Am          D      G
Lantas ku kirimkan ia kpd mu
G                        Bm
Kukarangi lagu nyanyikan untukmu
Bm A#m Am       D         G
teman dikala mendatangnya sepimu

Chorus :

C          Bm        Em           Bm
Sedar diri ini sebab tak hentinya mati (lirik xbetol)
A#m Am                      D
sampai masa ku kan jatuh ke bumi
C          Bm              Em        Bm
walau pada hakikatnya kita tak dapat bersama
A#m Am           D               G     Em
agar kau dapat tahu diari di hatiku....
Bm           Bm
Woo oh oh.......
A#m Am           D               G  Em
agar kau dapat tahu diari di hatiku
Bm           Bm
Woo oh oh.......
A#m Am           D               G
Agar kau dapat tahu ku mencintaimu

Lead guitar :
 
  Gmajor
     E   E  Q    E  E  E  E     E    E   E    E   E   E  Q    
E||--------------------------|--------------------------------|
B||--------------------------|--------------------------------|
G||--5s--4--4----4--4--4--4--|--4s--12--12s--11--11s--9--9----|
D||--x---x--x----x--x--x--x--|--x----x---x----x---x---x--x----|
A||--3s--2--2----2--2--2--2--|--2s--10--10s---9---9s--7--7----|
E||--------------------------|--------------------------------|


Bminor
  E  E  Q    E  E  E  E     E    E   E    E   E   E  Q    
-------------------------|--------------------------------|
-------------------------|--------------------------------|
--5--4--4----4--4--4--4--|--4s--12--12s--11--11s--9--9----|
--x--x--x----x--x--x--x--|--x----x---x----x---x---x--x----|
--3--2--2----2--2--2--2--|--2s--10--10s---9---9s--7--7----|
-------------------------|--------------------------------|


Aminor
  E   E  E  E  E  E  E  E     E    E   E    E   E   E  Q    
---------------------------|--------------------------------|
---------------------------|--------------------------------|
--5s--2--2--2--2--2--2--2--|--4s--12--12s--11--11s--9--9----|
--x---x--x--x--x--x--x--x--|--x----x---x----x---x---x--x----|
--3s--0--0--0--0--0--0--0--|--2s--10--10s---9---9s--7--7----|
---------------------------|--------------------------------|

Dmajor
   E   E   E   E   E   E   E   E      E   E   E   E   E   E   E   E  
----------------------------------|----------------------------------|
----------------------------------|----------------------------------|
--12--12--12--12--12--12--12--12--|--14--14--14--14--14--14--14--14--|
--12--12--12--12--12--12--12--12--|--12--12--12--12--12--12--12--12--|
--10--10--10--10--10--10--10--10--|--10--10--10--10--10--10--10--10--|
----------------------------------|----------------------------------|


Gmajor
   W                
--------------------||
--------------------||
--12----------------||
--12----------------||
--10----------------||
--------------------||


#Malaykord



Title: The Divine Masters - Merpati Putih Chord
Artist: The Divine Masters
Review:
Author:
Rate: 4 dari 5
Posted On:


✓ Jika ada sebarang masalah tentang chord lagu diatas sila buat aduan pada Form Report Chord yang disediakan.[REPORT CHORDS]





Play Youtube
Click to view Comment
<
>


Tidak Dapat Apa Yang Anda Cari? Request Chord Disini!