- 0 +

Skip to navigation

JOM! Subscribe Youtube Malaykord

Chord List

:
09 | A | B | C | D | E | F | G | H | I | J | K | L | M | N | O | P | Q | R | S | T | U | V | W | X | Y | Z | NEW
TOP | 09 | A | B | C | D | E | F | G | H | I | J | K | L | M | N | O | P | Q | R | S | T | U | V | W | X | Y | Z | NEW

Statik - Nikmat Sementara Chord



Statik - Nikmat Sementara Chord

Home > > > Statik - Nikmat Sementara Chord

Report Chord


Intro :

E|---10--10--8---8---7---7---8---8------
B|-----10--10--10--10--10--10--10-------
G|-------------------------------------- 2x
D|--------------------------------------
A|--------------------------------------
E|--------------------------------------
                 

E|---12--12---9---9----7--7--9--9-------  
B|-----12--12--12--12h9--9--9--9--------  
G|-------------------------------------- 2x
D|--------------------------------------  
A|--------------------------------------  
E|--------------------------------------  

    C                  Am
Sesuatu dalam hatiku berkata
      Dm                   G
Hari ini bagai untuk selamanya
         C                  Am
Dan kau katakan ini semua sementara
        Dm                    G
Di hari esok kan kembali ke asal-Nya

      C                  Am
Pada malam bintang berkelipan,
          Dm                 G
Aku terpesona dengan keindahan
                C    
Yang Tuhan ciptakan
             Am              Dm
Gadis yang jelita lelaki menawan
          G
Oh indah dunia
              C
Yang Tuhan ciptakan..

Ulang

E F E F

C                  Am
Dan kau katakan ini semua sementara
        Dm                    G
Di hari esok kan kembali ke asal-Nya

      C                  Am
Pada malam bintang berkelipan,
          Dm                 G
Aku terpesona dengan keindahan
                C    
Yang Tuhan ciptakan
             Am              Dm
Gadis yang jelita lelaki menawan
          G
Oh indah dunia
              C
Yang Tuhan ciptakan..



#Malaykord



Title: Statik - Nikmat Sementara Chord
Artist: Statik
Review:
Author:
Rate: 4 dari 5
Posted On:


✓ Jika ada sebarang masalah tentang chord lagu diatas sila buat aduan pada Form Report Chord yang disediakan.[REPORT CHORDS]





Play Youtube
Play Tutorial Guitar


Siapa Statik?


Loading....


<
>


Tidak Dapat Apa Yang Anda Cari? Request Chord Disini!